Diskuse

Diskuse o hudebních stylech, kapelách, hudebních nástrojích, technice hry, aj.

Téma: Olympic tabs- prosiiiiim

22.9.2003 18:19 [Dali]
Olympic tabs- prosiiiiim - Kategorie Technika
Ahojky kytaristi,
chtel jsem poprosit jestli nekdo z vas nema (och ta ostuda se na to ptat) to solo ze zacatku pisnicky Jasna zprava od Olympicu? Zapsane jako tabulaturu? Zkousel jsem to hledat na netu a nenasel jsem to, a usima se mi to prevzit nedari:-( Kdybyste to nekdo meli... a i ostatni pisnicky od Olympicu, nenasel jsem na netu nic:-( Diky predem...

Seznam příspěvků:

[0..12 / 12] Strana:  1 | Všechny | Poslední 
Pořadí:   Čas vložení    Uživatel 
24.9.2003 14:12 [Dali]
Re:
Kluciii to fakt nikdo nehrajete jasnou zpravu od olympicu? vypiste mi to aspon v tonech (stylem eadghe) ja uz jsem z toho vazne jelen:-( porad to nejak nezni:-( Dik
24.9.2003 18:57 [Dali]
Re:
tak jsem na tom zapracoval, muzete to nekdo pls jen zkouknout jestli je to dobre? Muj sluch neni ani zdaleka 100% :-((( diky

E1|-7-3--------3-5-7-7-7-5-3-5-7-8-10-12-12-12-10-8-7-3-|
H |----3-3-5-7------------------------------------------|
G |-----------------------------------------------------|
D |-----------------------------------------------------|
A |-----------------------------------------------------|
E |-----------------------------------------------------|

Tones H,G,D,D,E,Fis,G,A,H,H,H,A,G,A,H,C,D,E,E,E,D,C,H,G,
24.9.2003 18:58 [Dali]
Re:
E1|-7-3--------3-5-7-7-7-5-3-5-7-8-10-12-12-12-10-8-7-3-|

H |----3-3-5-7------------------------------------------|

G |-----------------------------------------------------|




Tones H,G,D,D,E,Fis,G,A,H,H,H,A,G,A,H,C,D,E,E,E,D,C,H,G,
25.9.2003 7:55 [klaun2]
Re: Dali
Na tom solu celkem nic není a luštit se mi to po tobě nechce. Ale myslím, že ti to nezní, protože patrně některé tóny nevytahuješ, ale hraješ je "normálně"...
25.9.2003 9:56 [Sandon]
Re:
ja bych rek, ze ty tony sou OK (bez kytary si to muzu jen zanotovat a porovnat cely- a pul-tony :o) Figl je v tom, ze to solo neni tezky v tom, ze by to bylo narocny technicky, ale v tom, ze je to zahrany s citem! Dulezity prvky tady sou ruzny finesy jako prstovy vibrato, vytahovani tonu a ruzny priklepy tonu a mozna i slajdy... Mozna si o tom nikdy neslysel, takze koukni na Kamiho stranky a poradne si je procti. Kamzi to ma moc pekne zpracovany. A pak muzes hledat dal...
25.9.2003 10:40 [Dali]
Re:
Sandon, klaun2 diky chlapi, mate asi pravdu s tim "citem".. zkusim to nastdovat. dik
25.9.2003 15:39 [klaun2]
Re: klaun2
Možná by ti taky pomohla Rocková škola od P. Jandy vydaná kdysi za bolševika (když už jsi takový Olympionik :-)
1.1.2006 14:03 [Tenson]
Re:
Stopa 1

E||--7--------------------|-----------------------|--7----7----7------|
B||-------8---------------|-------7----8----10----|---------------10--|
G||------------7--------7-|--9--------------------|-------------------|
D||-----------------------|-----------------------|-------------------|
A||-----------------------|-----------------------|-------------------|
E||-----------------------|-----------------------|-------------------|



---------------7----8----|--10----12--------12----10----|
--8--10------------------|------------------------------|
-------------------------|------------------------------|
-------------------------|------------------------------|
-------------------------|------------------------------|
-------------------------|------------------------------|



--8----7--------------||
------------8----8----||
----------------------||
----------------------||
----------------------||
----------------------||
1.1.2006 23:45 [Slayer]
Re: all
Keď už ste pri tom poprosím Chlap s kríža-Szidi Tobias komplet. Dík
2.1.2006 4:50 [Slayer]
Re:
Som "hluchý" resp. dlhšie my trvá spravenie pesničky a je málo času. Vysvetlím : Mám podpriemrne vyvynutý zmysel pre rytmus a hudobný sluch. Nie som úplná sračka, nikdo si po tých rokoch nedovolí my povedať, že som na nič(ani nie som), ale poznám ľudí čo sú po tých istých rokoch hrajú lepšie ako ja. Možno to bola ich priorita a možno hrali min. 12 hod. denne, ale niektorý sú prosto lepší. Vedel by som to asi dohnať teóriou, ale bez teórie hrám dlhšie ako s ňou a neviem ju moc využívať v praxi. t.j. po tých rokoch nerozmýšľam čo hrám za tón, ale ho hrám. pozn. nie som úplny antitalent, inak by som nemohol hrať na hudobný nástroj..., všetko je vydreté...
2.1.2006 5:12 [Slayer]
Re: pozn.
Odporujú si niektroé veci. Vysvetlím : Viem pri inprovizácii hodiť tón ktorý sa hodia, ale moja inprovizácia byva po dlheš dobe nudná(moje opité a asi aj triezve hľadisko) a strašne dlho by my trvalo aj spravenie jednoduchej pesničky ako Chlap s kríža(o.i. soundrack Fontána pre Zuzanu 2 pre skôr narodených.). Ďakujem.
2.1.2006 5:42 [Slayer]
Re:
Dúfam, že pochopíte... Stále žijem a ledva som chápal po pár chcíľach moje myšlienky. Veľa štastia...
[0..12 / 12] Strana:  1 | Všechny | Poslední